--------------------------------------------------------------------------------------------

 

---------------------------------------------

harto__espacio es un proyecto curatorial con base en Montevideo, Uruguay dirigido por los artistas Adela Casacuberta y Antar Kuri. Inició sus actividades en el 2004 con la inquietud de dinamizar el panorama del arte contemporáneo local y extender sus alcances a otros profesionales de la cultura.

harto__espacio implementa experimentos que permiten nuevas experiencias, a partir de las cuales se generan discusiones y dudas sobre términos como interpretación, juego, autoría, control, inclusión, participación, circuitos. Nuestras estrategias están inspiradas en métodos y soluciones que han sido revisados por diferentes actores de la historia del arte y aprovecha las facilidades que las comunicaciones brindan hoy en día para intercambiar información y tender puentes entre artistas de diferentes lugares.

 

 

» Proyectos
» Artistas representados
» Publicaciones
» Press kit
» Links
» Contacto

--------------------------------------------------------------------------------------------

 

---------------------------------------------


Correo Doméstico en Galería NoD / Praga / 2007

 

Proyectos en curso (2008)

» harto___espacio en ArteBA
» Lengua Romance en Paraguay

Proyectos anteriores

» Correo Doméstico / Galería NoD
» Plancha!
» Estamos Unidos
» Ensalada Paraguaya & Tucumana
» BAC! Festival / SARALUNDEN
» Suerte en pila!...
» Parafraseando al diablo
» Lengua Romance___
» Correo--------Doméstico

---------------------------------------------

 

---------------------------------------------

 

---------------------------------------------

Galería

harto___espacio debutó como galería en la edición 2007 de MACO / México Arte Contemporáneo. Actualmente representa a nueve artistas emergentes de México, Uruguay y Suecia.

harto___espacio apuesta por un arte constructivo donde se da la misma importancia a los productos, a los proyectos, y a la inserción de los mismos en el circuito internacional.

» ver imagenes

 


harto___espacio en MACO

 

Artistas representados

» Silvina Arismendi
» Balam Bartolomé
» Dulce Chacón
» José Luis Cortés
» Juan Pedro Fabra
» Heráclito López
» Sara Lundén
» Adriana Riquer
» Jorge Sosa

---------------------------------------------

 

---------------------------------------------

 

---------------------------------------------

Press kit  » download

Links

» Amorir
» Plataforma
» MARTE upmarket
» FAC
» Frontera incierta
» Magazine in situ
» Matatena
» hoffmans house

 

Publicaciones

 

Noticias

21-05-08 - - - - - - - - - - - - - - - - - - -
Actualizacion del sitio web de harto___espacio con informacion sobre los proyectos desarrollados durante el 2007.

05-09-07 - - - - - - - - - - - - - - - - - - -
José Luis Cortés participa en la Emergency Biennale en Estambul que va del 8 de septiembre al 4 de noviembre del 2007

05-09-07 - - - - - - - - - - - - - - - - - - -
Heráclito López muestra su trabajo en Casa Vecina, en la 3a edicion del proyecto colectivo "Bolso Negro".

29-07-07 - - - - - - - - - - - - - - - - - - -
El 8 de agosto inicia el Encuentro Regional de Arte, ERA07 en Montevideo. harto___espacio participa con 3 exposiciones, un taller y una conferencia.

21-07-07 - - - - - - - - - - - - - - - - - - -
El 1o. de octubre harto___espacio comienza con la itinerancia de sus proyectos inaugurando "Correo Doméstico" en Gallery Nod de Praga. Esta muestra se realiza en conjunto con Proyecto Parásito.

21-07-07 - - - - - - - - - - - - - - - - - - -
Balam Bartolomé y José Luis Cortés exponen su obra en "Media Asta", muestra colectiva de la generación más joven de artistas mexicanos con obras que responden a las consecuencias del patriotismo. Haydeé Rovirosa gallery. Junio 28 a Julio 28, 2007.

 

---------------------------------------------

 

--------------------------------------------------------------------------------------------

 

 

 

 

Contacto

» Directores: Adela Casacuberta y Antar Kuri
» Producción: Veronika Herzhorn

» Paraguay 1508 ap. 1002 / Montevideo, Uruguay
» c.p. 11105 / tel. (5982) 9011695

» info@hartoespacio.com / www.hartoespacio.com